ISO-10303-21;
HEADER;
FILE_DESCRIPTION (( 'STEP AP203' ),
    '1' );
FILE_NAME ('BK7-LNPBSC-20-780.STEP',
    '2021-01-05T02:01:46',
    ( '' ),
    ( '' ),
    'SwSTEP 2.0',
    'SolidWorks 2020',
    '' );
FILE_SCHEMA (( 'CONFIG_CONTROL_DESIGN' ));
ENDSEC;

DATA;
#1 = CARTESIAN_POINT ( 'NONE',  ( 10.00000000000000178, 9.999999999999998224, 10.00000000000000000 ) ) ;
#2 = VECTOR ( 'NONE', #61, 1000.000000000000000 ) ;
#3 = VERTEX_POINT ( 'NONE', #204 ) ;
#4 = DESIGN_CONTEXT ( 'detailed design', #117, 'design' ) ;
#5 = DIRECTION ( 'NONE',  ( 1.000000000000000000, 0.000000000000000000, 0.000000000000000000 ) ) ;
#6 = ORIENTED_EDGE ( 'NONE', *, *, #290, .F. ) ;
#7 = VECTOR ( 'NONE', #174, 1000.000000000000000 ) ;
#8 = VERTEX_POINT ( 'NONE', #125 ) ;
#9 = CALENDAR_DATE ( 2021, 5, 1 ) ;
#10 = PLANE ( 'NONE',  #316 ) ;
#11 = PERSON_AND_ORGANIZATION ( #168, #241 ) ;
#12 = CC_DESIGN_PERSON_AND_ORGANIZATION_ASSIGNMENT ( #280, #85, ( #114 ) ) ;
#13 = PLANE ( 'NONE',  #239 ) ;
#14 = CC_DESIGN_APPROVAL ( #134, ( #119 ) ) ;
#15 = DIRECTION ( 'NONE',  ( 0.000000000000000000, -0.000000000000000000, 1.000000000000000000 ) ) ;
#16 = ORIENTED_EDGE ( 'NONE', *, *, #271, .T. ) ;
#17 = EDGE_CURVE ( 'NONE', #194, #104, #223, .T. ) ;
#18 = ADVANCED_BREP_SHAPE_REPRESENTATION ( 'BK7-LNPBSC-20-780', ( #139, #37, #256 ), #98 ) ;
#19 = AXIS2_PLACEMENT_3D ( 'NONE', #246, #227, #5 ) ;
#20 = VECTOR ( 'NONE', #319, 1000.000000000000000 ) ;
#21 = ADVANCED_FACE ( 'NONE', ( #273 ), #315, .F. ) ;
#22 = CARTESIAN_POINT ( 'NONE',  ( -9.999999999999998224, -10.00000000000000000, -10.00000000000000000 ) ) ;
#23 = CARTESIAN_POINT ( 'NONE',  ( 10.00000000000000178, -10.00000000000000000, 10.00000000000000000 ) ) ;
#24 = EDGE_CURVE ( 'NONE', #228, #194, #44, .T. ) ;
#25 = VECTOR ( 'NONE', #317, 1000.000000000000000 ) ;
#26 = EDGE_LOOP ( 'NONE', ( #59, #313, #250, #206 ) ) ;
#27 = LINE ( 'NONE', #1, #176 ) ;
#28 = EDGE_LOOP ( 'NONE', ( #53, #231, #207, #158 ) ) ;
#29 = CARTESIAN_POINT ( 'NONE',  ( 10.00000000000000178, 9.999999999999998224, 10.00000000000000000 ) ) ;
#30 = ORIENTED_EDGE ( 'NONE', *, *, #226, .T. ) ;
#31 = DIRECTION ( 'NONE',  ( -0.7071067811865475727, -0.7071067811865474617, 0.000000000000000000 ) ) ;
#32 = PRODUCT_DEFINITION ( 'UNKNOWN', '', #114, #4 ) ;
#33 = ORIENTED_EDGE ( 'NONE', *, *, #36, .F. ) ;
#34 = FACE_OUTER_BOUND ( 'NONE', #102, .T. ) ;
#35 = COORDINATED_UNIVERSAL_TIME_OFFSET ( 8, 0, .AHEAD. ) ;
#36 = EDGE_CURVE ( 'NONE', #8, #276, #263, .T. ) ;
#37 = MANIFOLD_SOLID_BREP ( '¾µÏ', #318 ) ;
#38 = CC_DESIGN_PERSON_AND_ORGANIZATION_ASSIGNMENT ( #87, #191, ( #32 ) ) ;
#39 =( LENGTH_UNIT ( ) NAMED_UNIT ( * ) SI_UNIT ( .MILLI., .METRE. ) );
#40 = VERTEX_POINT ( 'NONE', #22 ) ;
#41 = DIRECTION ( 'NONE',  ( -0.7071067811865474617, 0.7071067811865475727, 0.000000000000000000 ) ) ;
#42 = CARTESIAN_POINT ( 'NONE',  ( 10.00000000000000000, 10.00000000000000000, 10.00000000000000000 ) ) ;
#43 = APPROVAL_PERSON_ORGANIZATION ( #112, #211, #84 ) ;
#44 = LINE ( 'NONE', #171, #185 ) ;
#45 = ADVANCED_FACE ( 'NONE', ( #118 ), #217, .F. ) ;
#46 = DIRECTION ( 'NONE',  ( -0.000000000000000000, -0.000000000000000000, -1.000000000000000000 ) ) ;
#47 = EDGE_LOOP ( 'NONE', ( #33, #180, #90, #65 ) ) ;
#48 = CARTESIAN_POINT ( 'NONE',  ( -10.00000000000000178, -9.999999999999996447, 10.00000000000000000 ) ) ;
#49 = LINE ( 'NONE', #321, #121 ) ;
#50 = CARTESIAN_POINT ( 'NONE',  ( 10.00000000000000000, 10.00000000000000000, 10.00000000000000000 ) ) ;
#51 = DATE_AND_TIME ( #9, #222 ) ;
#52 = DIRECTION ( 'NONE',  ( 1.000000000000000000, -2.220446049250313081E-16, 0.000000000000000000 ) ) ;
#53 = ORIENTED_EDGE ( 'NONE', *, *, #166, .F. ) ;
#54 = PERSON_AND_ORGANIZATION_ROLE ( 'design_supplier' ) ;
#55 = DIRECTION ( 'NONE',  ( 0.000000000000000000, -0.000000000000000000, 1.000000000000000000 ) ) ;
#56 = ORIENTED_EDGE ( 'NONE', *, *, #144, .F. ) ;
#57 = PLANE ( 'NONE',  #213 ) ;
#58 = DATE_AND_TIME ( #187, #189 ) ;
#59 = ORIENTED_EDGE ( 'NONE', *, *, #91, .T. ) ;
#60 = VECTOR ( 'NONE', #99, 1000.000000000000000 ) ;
#61 = DIRECTION ( 'NONE',  ( 1.000000000000000000, 0.000000000000000000, 0.000000000000000000 ) ) ;
#62 = AXIS2_PLACEMENT_3D ( 'NONE', #224, #218, #268 ) ;
#63 = CARTESIAN_POINT ( 'NONE',  ( 10.00000000000000178, 9.999999999999998224, 10.00000000000000000 ) ) ;
#64 = DIRECTION ( 'NONE',  ( -2.220446049250313081E-16, -1.000000000000000000, 0.000000000000000000 ) ) ;
#65 = ORIENTED_EDGE ( 'NONE', *, *, #138, .T. ) ;
#66 = CARTESIAN_POINT ( 'NONE',  ( 10.00000000000000000, 10.00000000000000000, 10.00000000000000000 ) ) ;
#67 = AXIS2_PLACEMENT_3D ( 'NONE', #42, #41, #137 ) ;
#68 = LINE ( 'NONE', #115, #2 ) ;
#69 = LINE ( 'NONE', #266, #60 ) ;
#70 = CARTESIAN_POINT ( 'NONE',  ( -9.999999999999998224, -10.00000000000000000, 10.00000000000000000 ) ) ;
#71 = CARTESIAN_POINT ( 'NONE',  ( 10.00000000000000000, 10.00000000000000000, -10.00000000000000000 ) ) ;
#72 = AXIS2_PLACEMENT_3D ( 'NONE', #66, #64, #212 ) ;
#73 = VERTEX_POINT ( 'NONE', #92 ) ;
#74 = DATE_AND_TIME ( #277, #216 ) ;
#75 = DIRECTION ( 'NONE',  ( -0.000000000000000000, 0.000000000000000000, -1.000000000000000000 ) ) ;
#76 = DIRECTION ( 'NONE',  ( -0.000000000000000000, 0.000000000000000000, -1.000000000000000000 ) ) ;
#77 = DIRECTION ( 'NONE',  ( 0.000000000000000000, 1.000000000000000000, 0.000000000000000000 ) ) ;
#78 = ORIENTED_EDGE ( 'NONE', *, *, #17, .F. ) ;
#79 = PERSON_AND_ORGANIZATION_ROLE ( 'classification_officer' ) ;
#80 = FACE_OUTER_BOUND ( 'NONE', #26, .T. ) ;
#81 = AXIS2_PLACEMENT_3D ( 'NONE', #63, #170, #262 ) ;
#82 = ORIENTED_EDGE ( 'NONE', *, *, #286, .T. ) ;
#83 = SECURITY_CLASSIFICATION_LEVEL ( 'unclassified' ) ;
#84 = APPROVAL_ROLE ( '' ) ;
#85 = PERSON_AND_ORGANIZATION_ROLE ( 'creator' ) ;
#86 = APPROVAL ( #167, 'UNSPECIFIED' ) ;
#87 = PERSON_AND_ORGANIZATION ( #168, #241 ) ;
#88 = AXIS2_PLACEMENT_3D ( 'NONE', #302, #128, #124 ) ;
#89 = PERSON_AND_ORGANIZATION ( #168, #241 ) ;
#90 = ORIENTED_EDGE ( 'NONE', *, *, #292, .T. ) ;
#91 = EDGE_CURVE ( 'NONE', #40, #73, #68, .T. ) ;
#92 = CARTESIAN_POINT ( 'NONE',  ( 10.00000000000000178, -10.00000000000000000, -10.00000000000000000 ) ) ;
#93 = CLOSED_SHELL ( 'NONE', ( #45, #299, #105, #173, #297 ) ) ;
#94 = CC_DESIGN_SECURITY_CLASSIFICATION ( #119, ( #114 ) ) ;
#95 = CARTESIAN_POINT ( 'NONE',  ( 10.00000000000000178, 9.999999999999998224, 10.00000000000000000 ) ) ;
#96 = CARTESIAN_POINT ( 'NONE',  ( -9.999999999999998224, 10.00000000000000355, 10.00000000000000000 ) ) ;
#97 = CARTESIAN_POINT ( 'NONE',  ( 10.00000000000000178, 9.999999999999998224, 10.00000000000000000 ) ) ;
#98 =( GEOMETRIC_REPRESENTATION_CONTEXT ( 3 ) GLOBAL_UNCERTAINTY_ASSIGNED_CONTEXT ( ( #311 ) ) GLOBAL_UNIT_ASSIGNED_CONTEXT ( ( #39, #132, #237 ) ) REPRESENTATION_CONTEXT ( 'NONE', 'WORKASPACE' ) );
#99 = DIRECTION ( 'NONE',  ( 1.000000000000000000, 0.000000000000000000, 0.000000000000000000 ) ) ;
#100 = ADVANCED_FACE ( 'NONE', ( #214 ), #261, .F. ) ;
#101 = CARTESIAN_POINT ( 'NONE',  ( 10.00000000000000178, 9.999999999999998224, -10.00000000000000000 ) ) ;
#102 = EDGE_LOOP ( 'NONE', ( #150, #156, #154 ) ) ;
#103 = DIRECTION ( 'NONE',  ( -0.000000000000000000, 1.000000000000000000, -0.000000000000000000 ) ) ;
#104 = VERTEX_POINT ( 'NONE', #314 ) ;
#105 = ADVANCED_FACE ( 'NONE', ( #169 ), #195, .F. ) ;
#106 = EDGE_LOOP ( 'NONE', ( #186, #130, #275 ) ) ;
#107 = CARTESIAN_POINT ( 'NONE',  ( -9.999999999999998224, -10.00000000000000000, 10.00000000000000000 ) ) ;
#108 = PERSON_AND_ORGANIZATION ( #168, #241 ) ;
#109 = EDGE_CURVE ( 'NONE', #194, #147, #143, .T. ) ;
#110 = CARTESIAN_POINT ( 'NONE',  ( 0.000000000000000000, 0.000000000000000000, 10.00000000000000000 ) ) ;
#111 = ADVANCED_FACE ( 'NONE', ( #120 ), #201, .F. ) ;
#112 = PERSON_AND_ORGANIZATION ( #168, #241 ) ;
#113 = ORIENTED_EDGE ( 'NONE', *, *, #226, .F. ) ;
#114 = PRODUCT_DEFINITION_FORMATION_WITH_SPECIFIED_SOURCE ( 'ANY', '', #269, .NOT_KNOWN. ) ;
#115 = CARTESIAN_POINT ( 'NONE',  ( -9.999999999999998224, -10.00000000000000000, -10.00000000000000000 ) ) ;
#116 = LOCAL_TIME ( 10, 1, 46.00000000000000000, #135 ) ;
#117 = APPLICATION_CONTEXT ( 'configuration controlled 3d designs of mechanical parts and assemblies' ) ;
#118 = FACE_OUTER_BOUND ( 'NONE', #244, .T. ) ;
#119 = SECURITY_CLASSIFICATION ( '', '', #83 ) ;
#120 = FACE_OUTER_BOUND ( 'NONE', #129, .T. ) ;
#121 = VECTOR ( 'NONE', #75, 1000.000000000000000 ) ;
#122 = FACE_OUTER_BOUND ( 'NONE', #47, .T. ) ;
#123 = EDGE_CURVE ( 'NONE', #3, #40, #295, .T. ) ;
#124 = DIRECTION ( 'NONE',  ( 0.000000000000000000, 0.000000000000000000, 1.000000000000000000 ) ) ;
#125 = CARTESIAN_POINT ( 'NONE',  ( -10.00000000000000178, -9.999999999999996447, -10.00000000000000000 ) ) ;
#126 = DIRECTION ( 'NONE',  ( -0.7071067811865475727, -0.7071067811865474617, 0.000000000000000000 ) ) ;
#127 = ORIENTED_EDGE ( 'NONE', *, *, #36, .T. ) ;
#128 = DIRECTION ( 'NONE',  ( 1.000000000000000000, -2.220446049250313081E-16, 0.000000000000000000 ) ) ;
#129 = EDGE_LOOP ( 'NONE', ( #210, #127, #259 ) ) ;
#130 = ORIENTED_EDGE ( 'NONE', *, *, #294, .F. ) ;
#131 = APPLICATION_PROTOCOL_DEFINITION ( 'international standard', 'config_control_design', 1994, #117 ) ;
#132 =( NAMED_UNIT ( * ) PLANE_ANGLE_UNIT ( ) SI_UNIT ( $, .RADIAN. ) );
#133 = VECTOR ( 'NONE', #240, 1000.000000000000000 ) ;
#134 = APPROVAL ( #255, 'UNSPECIFIED' ) ;
#135 = COORDINATED_UNIVERSAL_TIME_OFFSET ( 8, 0, .AHEAD. ) ;
#136 = ORIENTED_EDGE ( 'NONE', *, *, #109, .T. ) ;
#137 = DIRECTION ( 'NONE',  ( 0.7071067811865475727, 0.7071067811865474617, 0.000000000000000000 ) ) ;
#138 = EDGE_CURVE ( 'NONE', #228, #276, #49, .T. ) ;
#139 = MANIFOLD_SOLID_BREP ( 'Í¹Ì¨-À', #93 ) ;
#140 = VECTOR ( 'NONE', #236, 1000.000000000000000 ) ;
#141 = CC_DESIGN_PERSON_AND_ORGANIZATION_ASSIGNMENT ( #11, #165, ( #269 ) ) ;
#142 = CARTESIAN_POINT ( 'NONE',  ( -10.00000000000000178, -9.999999999999996447, -10.00000000000000000 ) ) ;
#143 = LINE ( 'NONE', #298, #20 ) ;
#144 = EDGE_CURVE ( 'NONE', #104, #8, #249, .T. ) ;
#145 = ADVANCED_FACE ( 'NONE', ( #122 ), #220, .F. ) ;
#146 = CARTESIAN_POINT ( 'NONE',  ( 10.00000000000000000, 10.00000000000000000, -10.00000000000000000 ) ) ;
#147 = VERTEX_POINT ( 'NONE', #272 ) ;
#148 = DIRECTION ( 'NONE',  ( 2.220446049250313081E-16, 1.000000000000000000, 0.000000000000000000 ) ) ;
#149 = LINE ( 'NONE', #71, #264 ) ;
#150 = ORIENTED_EDGE ( 'NONE', *, *, #109, .F. ) ;
#151 = LOCAL_TIME ( 10, 1, 46.00000000000000000, #188 ) ;
#152 = APPROVAL_DATE_TIME ( #51, #86 ) ;
#153 = LINE ( 'NONE', #177, #25 ) ;
#154 = ORIENTED_EDGE ( 'NONE', *, *, #292, .F. ) ;
#155 = COORDINATED_UNIVERSAL_TIME_OFFSET ( 8, 0, .AHEAD. ) ;
#156 = ORIENTED_EDGE ( 'NONE', *, *, #24, .F. ) ;
#157 = APPLICATION_PROTOCOL_DEFINITION ( 'international standard', 'config_control_design', 1994, #235 ) ;
#158 = ORIENTED_EDGE ( 'NONE', *, *, #17, .T. ) ;
#159 = VECTOR ( 'NONE', #46, 1000.000000000000000 ) ;
#160 = EDGE_CURVE ( 'NONE', #147, #8, #153, .T. ) ;
#161 = APPROVAL_DATE_TIME ( #74, #134 ) ;
#162 = DIRECTION ( 'NONE',  ( 1.000000000000000000, 0.000000000000000000, 0.000000000000000000 ) ) ;
#163 = VECTOR ( 'NONE', #126, 1000.000000000000000 ) ;
#164 = AXIS2_PLACEMENT_3D ( 'NONE', #95, #197, #289 ) ;
#165 = PERSON_AND_ORGANIZATION_ROLE ( 'design_owner' ) ;
#166 = EDGE_CURVE ( 'NONE', #276, #104, #149, .T. ) ;
#167 = APPROVAL_STATUS ( 'not_yet_approved' ) ;
#168 = PERSON ( 'UNSPECIFIED', 'UNSPECIFIED', 'UNSPECIFIED', ('UNSPECIFIED'), ('UNSPECIFIED'), ('UNSPECIFIED') ) ;
#169 = FACE_OUTER_BOUND ( 'NONE', #300, .T. ) ;
#170 = DIRECTION ( 'NONE',  ( -1.000000000000000000, 0.000000000000000000, 0.000000000000000000 ) ) ;
#171 = CARTESIAN_POINT ( 'NONE',  ( 10.00000000000000000, 10.00000000000000000, 10.00000000000000000 ) ) ;
#172 = DIRECTION ( 'NONE',  ( 1.000000000000000000, -2.220446049250313081E-16, 0.000000000000000000 ) ) ;
#173 = ADVANCED_FACE ( 'NONE', ( #203 ), #242, .T. ) ;
#174 = DIRECTION ( 'NONE',  ( -0.7071067811865475727, -0.7071067811865474617, 0.000000000000000000 ) ) ;
#175 = CARTESIAN_POINT ( 'NONE',  ( 10.00000000000000000, 10.00000000000000000, 10.00000000000000000 ) ) ;
#176 = VECTOR ( 'NONE', #103, 1000.000000000000000 ) ;
#177 = CARTESIAN_POINT ( 'NONE',  ( -10.00000000000000178, -9.999999999999996447, 10.00000000000000000 ) ) ;
#178 = LINE ( 'NONE', #70, #159 ) ;
#179 = EDGE_LOOP ( 'NONE', ( #16, #82, #30 ) ) ;
#180 = ORIENTED_EDGE ( 'NONE', *, *, #160, .F. ) ;
#181 = DATE_TIME_ROLE ( 'classification_date' ) ;
#182 = CARTESIAN_POINT ( 'NONE',  ( 0.000000000000000000, 0.000000000000000000, -10.00000000000000000 ) ) ;
#183 = EDGE_LOOP ( 'NONE', ( #56, #78, #136, #238 ) ) ;
#184 = COORDINATED_UNIVERSAL_TIME_OFFSET ( 8, 0, .AHEAD. ) ;
#185 = VECTOR ( 'NONE', #172, 1000.000000000000000 ) ;
#186 = ORIENTED_EDGE ( 'NONE', *, *, #123, .F. ) ;
#187 = CALENDAR_DATE ( 2021, 5, 1 ) ;
#188 = COORDINATED_UNIVERSAL_TIME_OFFSET ( 8, 0, .AHEAD. ) ;
#189 = LOCAL_TIME ( 10, 1, 46.00000000000000000, #155 ) ;
#190 = PERSON_AND_ORGANIZATION ( #168, #241 ) ;
#191 = PERSON_AND_ORGANIZATION_ROLE ( 'creator' ) ;
#192 = CARTESIAN_POINT ( 'NONE',  ( 0.000000000000000000, 0.000000000000000000, 0.000000000000000000 ) ) ;
#193 = DATE_AND_TIME ( #274, #116 ) ;
#194 = VERTEX_POINT ( 'NONE', #175 ) ;
#195 = PLANE ( 'NONE',  #81 ) ;
#196 = CC_DESIGN_DATE_AND_TIME_ASSIGNMENT ( #58, #181, ( #119 ) ) ;
#197 = DIRECTION ( 'NONE',  ( 0.7071067811865474617, -0.7071067811865475727, 0.000000000000000000 ) ) ;
#198 = CARTESIAN_POINT ( 'NONE',  ( 10.00000000000000178, -10.00000000000000000, 10.00000000000000000 ) ) ;
#199 = LINE ( 'NONE', #48, #260 ) ;
#200 = CC_DESIGN_PERSON_AND_ORGANIZATION_ASSIGNMENT ( #108, #54, ( #114 ) ) ;
#201 = PLANE ( 'NONE',  #62 ) ;
#202 = VERTEX_POINT ( 'NONE', #23 ) ;
#203 = FACE_OUTER_BOUND ( 'NONE', #179, .T. ) ;
#204 = CARTESIAN_POINT ( 'NONE',  ( 10.00000000000000178, 9.999999999999998224, -10.00000000000000000 ) ) ;
#205 = LINE ( 'NONE', #97, #7 ) ;
#206 = ORIENTED_EDGE ( 'NONE', *, *, #290, .T. ) ;
#207 = ORIENTED_EDGE ( 'NONE', *, *, #24, .T. ) ;
#208 = APPROVAL_ROLE ( '' ) ;
#209 = MECHANICAL_CONTEXT ( 'NONE', #235, 'mechanical' ) ;
#210 = ORIENTED_EDGE ( 'NONE', *, *, #144, .T. ) ;
#211 = APPROVAL ( #307, 'UNSPECIFIED' ) ;
#212 = DIRECTION ( 'NONE',  ( 0.000000000000000000, 0.000000000000000000, 1.000000000000000000 ) ) ;
#213 = AXIS2_PLACEMENT_3D ( 'NONE', #110, #55, #281 ) ;
#214 = FACE_OUTER_BOUND ( 'NONE', #183, .T. ) ;
#215 = VECTOR ( 'NONE', #76, 1000.000000000000000 ) ;
#216 = LOCAL_TIME ( 10, 1, 46.00000000000000000, #184 ) ;
#217 = PLANE ( 'NONE',  #164 ) ;
#218 = DIRECTION ( 'NONE',  ( 0.000000000000000000, -0.000000000000000000, 1.000000000000000000 ) ) ;
#219 = EDGE_CURVE ( 'NONE', #225, #3, #265, .T. ) ;
#220 = PLANE ( 'NONE',  #88 ) ;
#221 = DIRECTION ( 'NONE',  ( -0.000000000000000000, -0.000000000000000000, -1.000000000000000000 ) ) ;
#222 = LOCAL_TIME ( 10, 1, 46.00000000000000000, #35 ) ;
#223 = LINE ( 'NONE', #50, #215 ) ;
#224 = CARTESIAN_POINT ( 'NONE',  ( 0.000000000000000000, 0.000000000000000000, -10.00000000000000000 ) ) ;
#225 = VERTEX_POINT ( 'NONE', #29 ) ;
#226 = EDGE_CURVE ( 'NONE', #202, #225, #27, .T. ) ;
#227 = DIRECTION ( 'NONE',  ( -0.000000000000000000, 0.000000000000000000, 1.000000000000000000 ) ) ;
#228 = VERTEX_POINT ( 'NONE', #96 ) ;
#229 = PRODUCT_DEFINITION_SHAPE ( 'NONE', 'NONE',  #32 ) ;
#230 = FACE_OUTER_BOUND ( 'NONE', #106, .T. ) ;
#231 = ORIENTED_EDGE ( 'NONE', *, *, #138, .F. ) ;
#232 = CC_DESIGN_DATE_AND_TIME_ASSIGNMENT ( #193, #284, ( #32 ) ) ;
#233 = SHAPE_DEFINITION_REPRESENTATION ( #229, #18 ) ;
#234 = DIRECTION ( 'NONE',  ( 0.000000000000000000, 0.000000000000000000, 1.000000000000000000 ) ) ;
#235 = APPLICATION_CONTEXT ( 'configuration controlled 3d designs of mechanical parts and assemblies' ) ;
#236 = DIRECTION ( 'NONE',  ( -0.000000000000000000, 1.000000000000000000, -0.000000000000000000 ) ) ;
#237 =( NAMED_UNIT ( * ) SI_UNIT ( $, .STERADIAN. ) SOLID_ANGLE_UNIT ( ) );
#238 = ORIENTED_EDGE ( 'NONE', *, *, #160, .T. ) ;
#239 = AXIS2_PLACEMENT_3D ( 'NONE', #182, #282, #162 ) ;
#240 = DIRECTION ( 'NONE',  ( 2.220446049250313081E-16, 1.000000000000000000, 0.000000000000000000 ) ) ;
#241 = ORGANIZATION ( 'UNSPECIFIED', 'UNSPECIFIED', '' ) ;
#242 = PLANE ( 'NONE',  #19 ) ;
#243 = CARTESIAN_POINT ( 'NONE',  ( 10.00000000000000178, 9.999999999999998224, 10.00000000000000000 ) ) ;
#244 = EDGE_LOOP ( 'NONE', ( #247, #6, #254, #270 ) ) ;
#245 = LINE ( 'NONE', #305, #140 ) ;
#246 = CARTESIAN_POINT ( 'NONE',  ( 0.000000000000000000, 0.000000000000000000, 10.00000000000000000 ) ) ;
#247 = ORIENTED_EDGE ( 'NONE', *, *, #123, .T. ) ;
#248 = CC_DESIGN_PERSON_AND_ORGANIZATION_ASSIGNMENT ( #252, #79, ( #119 ) ) ;
#249 = LINE ( 'NONE', #146, #287 ) ;
#250 = ORIENTED_EDGE ( 'NONE', *, *, #286, .F. ) ;
#251 = VECTOR ( 'NONE', #291, 1000.000000000000000 ) ;
#252 = PERSON_AND_ORGANIZATION ( #168, #241 ) ;
#253 = CARTESIAN_POINT ( 'NONE',  ( -9.999999999999998224, -10.00000000000000000, 10.00000000000000000 ) ) ;
#254 = ORIENTED_EDGE ( 'NONE', *, *, #271, .F. ) ;
#255 = APPROVAL_STATUS ( 'not_yet_approved' ) ;
#256 = AXIS2_PLACEMENT_3D ( 'NONE', #192, #234, #257 ) ;
#257 = DIRECTION ( 'NONE',  ( 1.000000000000000000, 0.000000000000000000, 0.000000000000000000 ) ) ;
#258 = CALENDAR_DATE ( 2021, 5, 1 ) ;
#259 = ORIENTED_EDGE ( 'NONE', *, *, #166, .T. ) ;
#260 = VECTOR ( 'NONE', #148, 1000.000000000000000 ) ;
#261 = PLANE ( 'NONE',  #67 ) ;
#262 = DIRECTION ( 'NONE',  ( 0.000000000000000000, 0.000000000000000000, 1.000000000000000000 ) ) ;
#263 = LINE ( 'NONE', #142, #133 ) ;
#264 = VECTOR ( 'NONE', #52, 1000.000000000000000 ) ;
#265 = LINE ( 'NONE', #243, #251 ) ;
#266 = CARTESIAN_POINT ( 'NONE',  ( -9.999999999999998224, -10.00000000000000000, 10.00000000000000000 ) ) ;
#267 = CARTESIAN_POINT ( 'NONE',  ( -9.999999999999998224, 10.00000000000000355, -10.00000000000000000 ) ) ;
#268 = DIRECTION ( 'NONE',  ( 2.220446049250313081E-16, 1.000000000000000000, 0.000000000000000000 ) ) ;
#269 = PRODUCT ( 'BK7-LNPBSC-20-780', 'BK7-LNPBSC-20-780', '', ( #209 ) ) ;
#270 = ORIENTED_EDGE ( 'NONE', *, *, #219, .T. ) ;
#271 = EDGE_CURVE ( 'NONE', #225, #296, #205, .T. ) ;
#272 = CARTESIAN_POINT ( 'NONE',  ( -10.00000000000000178, -9.999999999999996447, 10.00000000000000000 ) ) ;
#273 = FACE_OUTER_BOUND ( 'NONE', #28, .T. ) ;
#274 = CALENDAR_DATE ( 2021, 5, 1 ) ;
#275 = ORIENTED_EDGE ( 'NONE', *, *, #91, .F. ) ;
#276 = VERTEX_POINT ( 'NONE', #267 ) ;
#277 = CALENDAR_DATE ( 2021, 5, 1 ) ;
#278 = DATE_AND_TIME ( #258, #151 ) ;
#279 = VECTOR ( 'NONE', #221, 1000.000000000000000 ) ;
#280 = PERSON_AND_ORGANIZATION ( #168, #241 ) ;
#281 = DIRECTION ( 'NONE',  ( 2.220446049250313081E-16, 1.000000000000000000, 0.000000000000000000 ) ) ;
#282 = DIRECTION ( 'NONE',  ( -0.000000000000000000, 0.000000000000000000, 1.000000000000000000 ) ) ;
#283 = EDGE_CURVE ( 'NONE', #202, #73, #293, .T. ) ;
#284 = DATE_TIME_ROLE ( 'creation_date' ) ;
#285 = ORIENTED_EDGE ( 'NONE', *, *, #219, .F. ) ;
#286 = EDGE_CURVE ( 'NONE', #296, #202, #69, .T. ) ;
#287 = VECTOR ( 'NONE', #31, 1000.000000000000000 ) ;
#288 = APPROVAL_PERSON_ORGANIZATION ( #190, #134, #208 ) ;
#289 = DIRECTION ( 'NONE',  ( 0.7071067811865475727, 0.7071067811865474617, 0.000000000000000000 ) ) ;
#290 = EDGE_CURVE ( 'NONE', #296, #40, #178, .T. ) ;
#291 = DIRECTION ( 'NONE',  ( -0.000000000000000000, -0.000000000000000000, -1.000000000000000000 ) ) ;
#292 = EDGE_CURVE ( 'NONE', #147, #228, #199, .T. ) ;
#293 = LINE ( 'NONE', #198, #279 ) ;
#294 = EDGE_CURVE ( 'NONE', #73, #3, #245, .T. ) ;
#295 = LINE ( 'NONE', #101, #163 ) ;
#296 = VERTEX_POINT ( 'NONE', #107 ) ;
#297 = ADVANCED_FACE ( 'NONE', ( #230 ), #13, .F. ) ;
#298 = CARTESIAN_POINT ( 'NONE',  ( 10.00000000000000000, 10.00000000000000000, 10.00000000000000000 ) ) ;
#299 = ADVANCED_FACE ( 'NONE', ( #80 ), #10, .F. ) ;
#300 = EDGE_LOOP ( 'NONE', ( #306, #285, #113, #304 ) ) ;
#301 = ADVANCED_FACE ( 'NONE', ( #34 ), #57, .T. ) ;
#302 = CARTESIAN_POINT ( 'NONE',  ( -10.00000000000000178, -9.999999999999996447, 10.00000000000000000 ) ) ;
#303 = CC_DESIGN_APPROVAL ( #211, ( #32 ) ) ;
#304 = ORIENTED_EDGE ( 'NONE', *, *, #283, .T. ) ;
#305 = CARTESIAN_POINT ( 'NONE',  ( 10.00000000000000178, 9.999999999999998224, -10.00000000000000000 ) ) ;
#306 = ORIENTED_EDGE ( 'NONE', *, *, #294, .T. ) ;
#307 = APPROVAL_STATUS ( 'not_yet_approved' ) ;
#308 = APPROVAL_DATE_TIME ( #278, #211 ) ;
#309 = CC_DESIGN_APPROVAL ( #86, ( #114 ) ) ;
#310 = PRODUCT_RELATED_PRODUCT_CATEGORY ( 'detail', '', ( #269 ) ) ;
#311 = UNCERTAINTY_MEASURE_WITH_UNIT (LENGTH_MEASURE( 1.000000000000000082E-05 ), #39, 'distance_accuracy_value', 'NONE');
#312 = APPROVAL_ROLE ( '' ) ;
#313 = ORIENTED_EDGE ( 'NONE', *, *, #283, .F. ) ;
#314 = CARTESIAN_POINT ( 'NONE',  ( 10.00000000000000000, 10.00000000000000000, -10.00000000000000000 ) ) ;
#315 = PLANE ( 'NONE',  #72 ) ;
#316 = AXIS2_PLACEMENT_3D ( 'NONE', #253, #77, #15 ) ;
#317 = DIRECTION ( 'NONE',  ( -0.000000000000000000, 0.000000000000000000, -1.000000000000000000 ) ) ;
#318 = CLOSED_SHELL ( 'NONE', ( #100, #145, #21, #301, #111 ) ) ;
#319 = DIRECTION ( 'NONE',  ( -0.7071067811865475727, -0.7071067811865474617, 0.000000000000000000 ) ) ;
#320 = APPROVAL_PERSON_ORGANIZATION ( #89, #86, #312 ) ;
#321 = CARTESIAN_POINT ( 'NONE',  ( -9.999999999999998224, 10.00000000000000355, 10.00000000000000000 ) ) ;
ENDSEC;
END-ISO-10303-21;
